Das Model

Printer Friendly, PDF & Email

Interpret

Kraftwerk

Akkorde

Intro

--------------------------||-oder---------------------------|
--------------------------||--------------------------------|
-2------------------------||--9-----------------------------|
-2------------2-----------||--7--7-10-7-10---9--------------|
---0-3-0-3----2-----------||-----------------7--7-10-7-10---|
----------------0-3-0-3---||--------------------------------|

Strophe

---|------|----------|--------||-oder-------|-----------|--------||
-2-|------|-2--------|--------||-----|------|-----------|--------||
-2-|-1----|-2--------|--------||---9-|------|-9---------|--------||
-2-|-2----|-2--------|--------||---7-|-9----|-7--10-9-7-|-9------||
-0-|-2----|-0--3-2-0-|-2------||-----|-7--7-|-----------|---10-7-||
---|-0--0-|----------|---3-0--||-----|------|-----------|--------||

Refrain

| C | H (A) | G | G |
| C | H | E | G# A H |

 

Solo

||---------------------|----------------|-----------------------|-----------------||
||---------------------|----------------|-----------------------|-------------(8)-||
||o9---------9----9-10-|-9---------9--7-|-9----------9----9--10-|-9--------9-----o||
||o--10-7-10---10------|---9----9-------|----10-7-10---10-------|---9----9-------o||
||---------------------|-----10---------|-----------------------|-----10----------||
||---------------------|----------------|-----------------------|-----------------||

(oder)
||-12----------12----12-13-|-12----------12-----|--12----------12----12-13-|-12----------12--(15)||
||----13----13----13-------|----12----12-----15-|-----13----13----13-------|----12----12---------||
||o------14----------------|-------12-----------|--------14----------------|-------12-----------o||
||o------------------------|--------------------|--------------------------|--------------------o||
||-------------------------|--------------------|--------------------------|---------------------||
||-------------------------|--------------------|--------------------------|---------------------||

-------|--------|--------------|-------|--------------|----|----|-----------|
-------|--------|--------------|-------|--------------|----|----|--9--10-12-|
-------|--------|--------------|--7----|--9-----------|----|--9-|-----------|
--10---|--9--7--|-----------9--|-------|-------10-----|--9-|----|-----------|
-------|--------|--10----------|-------|----------10--|----|----|-----------|
-------|--------|--------------|-------|--------------|----|----|-----------|

 

Musik Gruppe