Dance with somebody

Printer Friendly, PDF & Email

Interpret

Mando Diao

Akkorde

Intro
e|-------------------------------------------------------------------|
B|-------------------------------------------------------------------|
G|-------------------------------------------------------------------|
D|------------------------1--2--/4~---2-1~---------------------------|
A|-----------------2-4~--------------------4-------------------------|
E|---0-2~---4-5~------------------------------4~---------------------|

e|-------------------------------------------------------------------|
B|-------------------------------------------------------------------|
G|-------------------------------------------------------------------|
D|-----2-/4~---2-1~-----1-2---4---1-1-1-1-1-1-1-1-1-1-1-1-1-1-1-1----|
A|---0--------------4------------------------------------------------|
E|-------------------------------------------------------------------|

e|-------------------------------------------------------------------|
B|-------------------------------------------------------------------|
G|---2-1-2-1-2-1-2-1-2-1-2-1-2-1-2-/4-/6---4--6--4--\1---0---0-1-----| X 2
D|---------------------------------------------------------2---------|
A|-------------------------------------------------------------------|
E|-------------------------------------------------------------------|

e|-----------0--2--4--5--7--9--\4---4h5p4-2-4-2-0--------------------|
B|------/2----------------------------------------4-2----------------|
G|---1---------------------------------------------------------------|
D|-------------------------------------------------------------------|
A|-------------------------------------------------------------------|
E|-------------------------------------------------------------------|


Strophe

| F#m A | C#m |
| F#m A | C#m H |

Refrain (2x)

| F#m A | C#m |

E|--9---9--9--9--9--9----9---9-9--9-9--9----4--7-4---7-4-7-4-7-4-7-|
B|--10--10-10-10-10-10---10--9-10-9-10-9----5--5-5---5-5-5-5-5-5-5-|
G|--11--9--11-9--11-9----9---9-9--9-9--9----6----6-----6---6---6---|
D|--11--11-11-11-11-11----------------------6--6-6---6-6-6-6-6-6-6-|
A|-----------------------------------------------------------------|
E|-----------------------------------------------------------------|

Musik Gruppe