Cheri Cheri Lady

Interpret

Modern Talking

Akkorde

Intro

|| Cm | Cm | G# B | Cm ||

Strophe 

|| Cm | Gm | G# B | Cm ||

| Gm | Cm | Gm | Gm |

Refrain

|| Cm | Gm | Fm B | Cm || 4x

| Gm | Cm | Gm |

 

Intro Fill
||----------------------------||--------------------|
||--1--1---4--4---3--3--------||-----1--1--1-----1--|
||-----------------------3--3-||--3-----------3-----|
||-10-10--13-13--12-12--------||----10-10-10----10--|
||----------------------13-13-||-13----------13-----|
||----------------------------||--------------------|

Refrain Fill
||----------------------||
||----------------------||
||-----------8-7--------||
||-10-8-10-8-----10-8-8-||
||----------------------||
||----------------------||

 

Musik Gruppe