Chasing Cars

Printer Friendly, PDF & Email

Interpret

Snow Patrol

Akkorde

Akkorde durchgehend
|| A | E/G# | D | A ||

Intro/Verse:

e|------------------------------------------------------------------|
B|------------------------------------------------------------------|
G|--9-9-9-9-9-9-9-9-9-9-9-9-9-9-9-9-9-9-9-9-9-9-9-9-9-9-9-9-9-9-9-9-|
D|-7-7-7-7-7-7-7-7-6-6-6-6-6-6-6-6-0-0-0-0-0-0-0-0-7-7-7-7-7-7-7-7--|
A|-----------------------------------5-5-5-5-5-5-5------------------|
E|------------------------------------------------------------------|

Chorus:
|| A | A/G# | D | A ||
e|----------------------------------------------------------------------------|
B|----------------------------------------------------------------------------|
G|--------------------------------------7-7-7-7-7-7-7-7-7---------------------|
D|-7-7-7-7-7-7-7-7-7--7-7-7-7-7-7-7-7-7-7-7-7-7-7-7-7-7-7--7-7-7-7-7-7-7-7-7--|
A|-7-7-7-7-7-7-7-7-7--7-7-7-7-7-7-7-7-7-5-5-5-5-5-5-5-5-5--7-7-7-7-7-7-7-7-7--|
E|-5-5-5-5-5-5-5-5-5--4-4-4-4-4-4-4-4-4--------------------5-5-5-5-5-5-5-5-5--|

Piano bit:
e|--9---------9---------9----------|
B|----9--10-----9--9/7-----9--10---|
G|---------------------------------|
D|---------------------------------|
A|---------------------------------|
E|---------------------------------|

Musik Gruppe