Celebration

Printer Friendly, PDF & Email

Interpret

Kool & The Gang

Akkorde

Intro:
G# (Oktave)

-----------------|-(8-9--11)-
--9/(11)--9--9---|-----------
-----------------|-----------
-----------------|-----------
-----------------|-----------
-----------------|-----------


-------|--14----13----11------------|--------11-----|
-13-14-|--------------------14------|--13-14--------|
-------|--11----10----8-------------|--------8--13--|
-10-11-|--------------------11------|--10-11--------|
-------|----------------------------|-----------11--|
-------|----------------------------|---------------|

oder
8--9-|--14----13----11----9-------|--8--9--11--------------16-|
-----|----------------------------|-----------9---------------|
5--6-|--11----10----8-----6-------|--5--6--8---------------13-|
-----|----------------------------|-----------6---------------|
-----|----------------------------|---------------------------|
-----|----------------------------|---------------------------|

Main Riff

F#/F   F          G#
-----------------------
-4-4--4-4--4-4-4--6----
-1-1--2-2--1-2-1--4----

Bridge
| F#/G# | C#/G# G# |

Middle
| C#maj7 | Cm7 | Fsus4 | F |
| A#m | C#/D# |

 

Liedtext

 

Musik Gruppe