Can't Stop

Printer Friendly, PDF & Email

Interpret

Red Hot Chili Peppers

Akkorde

Intro
||----------------------------||
||o--------------------------o||
||----------------------------||
||----------------------------||
||o-5-7-5-7-5-7-(7)-5-7-5-7--o||
||----------------------------||

Main Riff
  Em7                       Dsus2
|-------------------------------|------------------------------|
|-------------------------------|------------------------------|
|-----7-9-------7-x-9-(9)-------|---7-9-------7-x-9-(9)-7------|
|-------------------------------|-0-----0-0-0-----------x-0-0--|
|-7-7-----7-7-7-----------7-7-7-|-----------------------0------|
|-------------------------------|------------------------------|

  Bmadd4                   Cadd9
|-----------------------------|---------------------------||
|-----------------------------|---------------------------||
|---7-9-------7-x-9-(9)-7-----|---7-9-------7-x-9-(9)-9---||
|---x---------x-x-------x-----|---x---------x-x-------x---||
|---x---------x-x-------x-----|---x---------x-x-------x---||
|-7-7---7-7-7-7-x-------7-7-7-|-8-8---8-8-8-8-x-------8-8-||

Chorus
 G        D             Bm       Cmaj7            
||-3--3-3---------------|-----------7--7--7--7-x-||
||-3--3-3-x-7-7-7-7-x-x-|-7--7-7-x--8--8--8--8-x-||
||-4--4-4-x-7-7-7-7-x-x-|-7--7-7-x--9--9--9--9-x-||
||-5--5-5-x-7-7-7-7-x-x-|-9--9-9-x-10-10-10-10-x-|| 3x
||-x--x-x---5-5-5-5-----|-x--x-x----x--x--x--x---||
||-3--3-3---------------|-7--7-7----8--8--8--8---||

  G        D           Bm7 Cmaj7
|-3--3-3-------------|------7------||
|-3--3-3-x-7-7-7-7---|-10---8-----o||
|-4--4-4-x-7-7-7-7---|--7---9------||
|-5--5-5-x-7-7-7-7---|--9--10------||
|-x--x-x---5-5-5-5---|------------o||
|-3--3-3-------------|-------------||

Bridge
|| Em | D  D6 | Hm Hm7 | C D(4+) ||

Solo (über Strophe)
|-------------------|--------------|--------------|------------------------|
|-15b17------15b17--|-15-------15--|-12-------12--|------------------------|
|-------------------|--------------|--------------|-12----12-(12)-12-12-12-|
|-------------------|--------------|--------------|------------------------|
|-------------------|--------------|--------------|------------------------|
|-------------------|--------------|--------------|------------------------|

|--------------------------|-----------------|-------------|-------------------|
|-15b17==(15)r-17b19r=(17)-|-15--15b17r=(15)-|-12--(12)-15-|-------------------|
|--------------------------|-----------------|-------------|-12h14-12--s11-----|
|--------------------------|-----------------|-------------|---------------14\-|
|--------------------------|-----------------|-------------|-------------------|
|--------------------------|-----------------|-------------|-------------------|

Musik Gruppe