Californication

DruckversionDruckversion

Akkorde: 

Intro & VERSE :
E|---------------------------|-------------------|
B|-----0-1-------------------|-------------------|
G|---------------------------|-----0-2-----------|
D|---2-------(2)-(0h2p0)-----|-----------(0)-----|
A|-0---------------------(3)-|---3-----------(3)-|
E|---------------------------|-1-----------------|

Verse Break 
| C | G | F | Dm |

Pre-Chorus | Am | F7 |

Chorus    | C | G | Dm | Am |
     | C | G | Dm | Dm |


Solo :
e-|----9------------------9------------------------------------------------
B-|-10-----------------10----------------7-7-7-5-5-------------5-5-7-8-7-5-
G-|------11b(13)-11---------11b(13)-11-------------6-6-4-4-6-6-------------
D-|------------------------------------------------------------------------
A-|------------------------------------------------------------------------
E-|------------------------------------------------------------------------


e-|----9-10-12-(12)/14------9-10-12-(12)/14--------------|
B-|-10-------------------10------------------------------|
G-|------------------------------------------------------|


e-|-17--16--14------14---------------------------------------------------|
B-|-------------17------17---14--17--14---14----14-----------19b(21)-----|
G-|---------------------------------------16----16b(20)---14-------------|
D-|----------------------------------------------------------------------|


e-|---------------------------------------------|
B-|-19-17----17-------------17---15-14----------|
G-|-------18----18--16--14---------------14-----|
D-|---------------------------------------------|

Musik Gruppe: 

Interpret: 

Red Hot Chili Peppers