Brown eyed Girl - Van Morrison

Printer Friendly, PDF & Email

Akkorde

Intro:
G                 C                    G                 D
-7--8--10---8--7-|-12--13--15--13--12-|-7--8--10---8--7-|-5---2--3--5-
-8-10--12--10--8-|-13--15--17--15--13-|-8-10--12--10--8-|-7---3--5--7-
-----------------|--------------------|-----------------|-------------

Mandoline
E||-----------|-0-1-3-1-0-|-----------|---------||
A||-2-3-5-3-2-|-3-5-7-5-3-|-2-3-5-3-2-|-0-----0-||
D||-5-7-9-7-5-|-----------|-5-7-9-7-5-|-4-4-5-4-||
G||-----------|-----------|-----------|---7-9---||

Strophe
|| G | C | G | D || 4x

Refrain
| C | D | G | Em |
| C | D | G | D |

Bridge
| D7 | D7 |
| G | C | G | D7 |
| G | C | G | D7 |
| G | G |

Fills
-------8/10--10--8--7--5-|
-------------------------|

|------------------------------------------------------------------|
|8--10--12--10--8---13----8--10------8--10--12--10--8--10---------3|

D
--2--0--2--------3--5--3-2-0---
-------------------------------

Musik Gruppe