Boys of Summer

Interpret

Don Henley

Akkorde

(3 Bünde tiefer spielen - Rest ist angepasst)
  D#m VI Lage        3          4         3             3
e|------|----------|----------|---------|-------------|-6---|
b|------|----------|----------|-7-------|-9p7-7-------|---9-|
g|-6//8-|------6---|------6---|---8-6-8-|-------8-6-8-|-----|
d|------|-6//8---8-|-6//8---8-|---------|-------------|-----|
a|------|----------|----------|---------|-------------|-----|
E|------|----------|----------|---------|-------------|-----|


||----------------------------||
||-4-3----4-3----4-3----4-3---||
||-----3------3------3------3-||
||----------------------------||
||-3--------------------------||
||----------------------------||

Strophe

| Cm | G# | Hb | G# |

 

||----------------------------||
||-4-3----4-3----4-3----4-3---||
||-----3------3------3------3-||
||----------------------------||
||-3--------------------------||
||----------------------------||

Refrain

| D# | Hb | Hb | G# |
| D# | Hb | Hb | G# |
| Cm | G# | Hb | G# |

Musik Gruppe