Behind Blue Eyes - Limp Biskit

Printer Friendly, PDF & Email

Akkorde

Behind Blue Eyes - Limp Bizkit

 CHORDS

    Em | G6  |Dsus2|Cadd9|Asus2| D   | G   | E   |Esus4| Bm  |
e|-----|---0-|--0--|--0--|--0--|--2--|--3--|-----|-----|--2--|
B|-----|---3-|--3--|--3--|--0--|--3--|--3--|--0--|--0--|--3--|
G|-----|-----|--2--|--0--|--2--|--2--|--0--|--1--|--2--|--4--|
D|---2-|---0-|-----|--2--|--2--|-----|--0--|--2--|--2--|--4--|
A|---2-|---2-|-----|--3--|-----|-----|--2--|--2--|--2--|--2--|
E|---0-|---3-|-----|-----|-----|-----|--3--|-----|-----|-----|

INTRO
e|-----------0--------------------0----------------0-----------------------|
B|-------------0--------------------3---------3-------3---3---------3------|
G|--------0------0-------------0------0-----2---2-------2--------2----2----|
D|------2-------------------0-----------0-0-------------------0------------|
A|----2-------------2-----2------------------------------------------------|
E|--0------------------3---------------------------------------------------|

Strophe
|| Em | G6 | Dsus4 | % |

| Cadd9 | Cadd9 | Asus2 | % ||

Refrain
| Cadd9 | D | G | G |
| Cadd9 | D | E
(->sus4)| % |
| Hm | % | Cadd9 | % |
| D | % | Asus2 | % | % | % |

Bridge
|| Em | G | Dsus4 | Cadd9 ||
 
Bridge (Who Version)
1. || E | H A ||
2. | E | H A |
   | E | H G |
   || D | Hm A ||
1. | E | H A |
2.
1. || E | H A ||
|| H | A G D D || 3x
| H |
Guitar Solo (Electric):
|---------------12--------12------------------------------------12--12--------------------------|
|-------------------------12---------------9----9-9----9--------12--12-------9----9-9-----------|
|--------11b13-----11b13------13r11--9-----9----9-9----9--11b13-----13r11----9----9-9-----------|
|---------------------------------------11---11-----11--------------------11---11-----11-9--9\--|
|-7\--------------------------------------------------------------------------------------------|
|-----0-----------------------------------------------------------------------------------------|

Musik Gruppe