Applaus Applaus

Printer Friendly, PDF & Email

Interpret

Sportfreunde Stiller

Akkorde

Alternative Intro:

e|---------------------------------|
B|---------------------------------|
G|-4---4---7---7---0---0---0---0---|  (x2)
D|---5---5---7---7---2---2---2---2-|
A|---------------------------------|
E|---------------------------------|

Intro & Strophe:
| G | D | Em | Em |

Refrain
|| C | Em | G | D || 3x
| C | C | Em | Em |
| G | G | D | D |


 

Solo

|| C | Em | G | D || 6x

e|-----------------------------------------------------------|
B|--------12-------------12-------------13----15-13-12h13-12-|
G|-12-12-----12----12-12----12----12-12----12----------------|
D|-----------------------------------------------------------| 2x
A|-----------------------------------------------------------|
E|-----------------------------------------------------------|

e|-----------------------------------------------------------|
B|-----------------------------------------------------------|
G|-9-9-11-12-12--------------12-12-14-12-11---11-11h12-11----|
D|-----------------------------------------------------------|
A|-----------------------------------------------------------|
E|-----------------------------------------------------------|

e|-----------------------------------------------------------|
B|-----------------------------------------------------------|
G|-9-9-11-12-12--------------12-11h12-11--11-11-11-11-11-11--|
D|-----------------------------------------------------------|
A|-----------------------------------------------------------|
E|-----------------------------------------------------------|

e|-----------------------------------------------------------|
B|-------------10---------------12----15-13-12-12------------|
G|-9-12-9---11----11---------12----12------------------------|
D|-----------------------------------------------------------|
A|-----------------------------------------------------------|
E|-----------------------------------------------------------|

e|-----------------------------------------------------------|
B|-------------10--------------------------------------------|
G|-9-12-9---11----11---------11h12-12-12-12-12-12-12-12-12---|
D|-----------------------------------------------------------|
A|-----------------------------------------------------------|
E|-----------------------------------------------------------|

Musik Gruppe