American Idiot

Printer Friendly, PDF & Email

Interpret

Green Day

Akkorde

Main Riff
|----------------------------|
|----------------------------|
|---------6-6-6-------6------|
|--6-6-6--6-6-6--4-4--6-6-4--|
|--6-6-6--4-4-4--4-4--4-6-4--|
|--4-4-4---------2-2----4-2--|

Chorus
| C# | G# | D# | G# |
| C# | G# | D# | n.C. |

Solo
|----------------------------------|
|----------------------------------|
|-1010101010101010101010101010-8-6-|
|--x-x-x-x-x-x-x-x-x-x-x-x-x-x-x-x-|
|--8-8-8-8-8-8-8-8-8-8-8-8-8-8-6-4-|
|----------------------------------|

|----------------------------------------------|
|----------------------------------------------|
|-8-8-8-8-8-8-8-10-8-6-5-3-3-3-3-3-3-3-6-5-3---|
|-x-x-x-x-x-x-x--x-x-x-x---------------------6-|
|-6-6-6-6-6-6-6--8-6-4-3-----------------------|
|----------------------------------------------|

|-------------------8-----11------|
|-----9------11----------------9~-|
|-8-8----8-8----8-8---8-8----8----|
|---------------------------------|
|---------------------------------|
|---------------------------------|

|----------------------------------|
|----------------------------------|
|-1010101010101010101010101010-8-6-|
|--x-x-x-x-x-x-x-x-x-x-x-x-x-x-x-x-|
|--8-8-8-8-8-8-8-8-8-8-8-8-8-8-6-4-|
|----------------------------------|

|----------------------------------------------|----
|----------------------------------------------|----
|-8-8-8-8-8-8-8-10-8-6-5-3-3-3-3-3-3-3-6-5-3---|-13-
|-x-x-x-x-x-x-x--x-x-x-x---------------------6-|----
|-6-6-6-6-6-6-6--8-6-4-3-----------------------|----
|----------------------------------------------|----

End riff
|--------------------------|
|--------------------------|
|---------6-6-6-------6----|
|--6-6-6--6-6-6--4-4--6-6--|
|--6-6-6--4-4-4--4-4--4-6--|
|--4-4-4---------2-2----4--|

Musik Gruppe