All Summer Long - Kid Rock

DruckversionDruckversion

Akkorde: 

All Summer Long - Kid Rock

Intro: 
|---------||-----------------------------||
|---------||o---------------------------o||
|---------||-----------------------------||
|---------||---7---5-5-------------------||
|-5-3h4h5-||o--5---3-3---5-5--5-5-3h4h5-o||
|-3-------||-------------3-3--3-3--------||

Strophe / Refrain
|| D | C | G | G ||

Intro to verse 3
||------------------------||
||o----3------3--------3-o||
||------2------2-------2--||
||--0-0----------------0--||
||o--------3-3---------0-o||
||-----------------3-3----||

Solo
||-13b-13-10h13p10-------------------------------------------------------|
||----------------13-10-13b---13-10----13----13----13----13--------------|
||----------------------------------12b---12b---12b---12b---12bp10----10v|
||-----------------------------------------------------------------12----|
||-----------------------------------------------------------------------|
||-----------------------------------------------------------------------|

-----------------------------------------------------------|
-----------------------------------------------------------|
-12b-10--10--12b-10--10--12b-10--10------------------------|
-------12----------12----------12----12-10-12p10-----------|
------------------------------------------------12p10------|
-----------------------------------------------------12-10-|

|--------------------------------------------------------9*-----|
|-------------------------------10b-10-8-10-8-------------------|
|---7-7\---7-7\---7-7-9-9bp7-7---------------9bp7-7---7-9---7vv-|
|-/9-9---/9-9---/9-9--------------------------------/9-----9----|
|---------------------------------------------------------------|
|---------------------------------------------------------------|

|-----------------------------------------------------------------------|
|----10-13p10---10-13p10----10-13p10---10-13p10----10-13p10----10-13p10-|
|-12b--------12b---------12b--------12b---------12b---------12b---------|
|-----------------------------------------------------------------------|
|-----------------------------------------------------------------------|
|-----------------------------------------------------------------------|

|------------------------10----10-13p10--10-13p10--10-13p10--10-13p10-|
|----10-13p10---10-13p10-----10--------10--------10--------10---------|
|-12b--------12b----------------------------------------------------|
|-------------------------------------------------------------------|
|-------------------------------------------------------------------|
|-------------------------------------------------------------------|

|---10-13p10--10-13p10--10-13p10--10-13p10----10----------------------------|
|-10--------10--------10--------10---------13b--13-10---10------------------|
|----------------------------------------------------12b--12-10--10-12b-10v-|
|--------------------------------------------------------------12-----------|
|---------------------------------------------------------------------------|
|---------------------------------------------------------------------------|

|------------------------------------------------10-----|
|----------------------------------------------10r--13b-|
|---------12--12b-10--10----------------12-12b----------|
|---------12--------12---12p10----------12--------------|
|-10h12-10----------------------10h12-10----------------|
|-------------------------------------------------------|

|---10-13p10--15p10--13p10--15p10--13p10---10-15p13p10--------------------||
|-10--------10-----10-----10-----10------10-----------13-10-13b-10--------||
|-----------------------------------------------------------------12b-10vv||
|-------------------------------------------------------------------------||
|-------------------------------------------------------------------------||
|-------------------------------------------------------------------------||



Musik Gruppe: