All Right Now

Printer Friendly, PDF & Email

Interpret

Free

Akkorde

Intro/Verses

|-5-----------5-------0--0-----------------5----|
|-5-------3---5-------3--3---3--3--3-------5----|
|-2-------2---2-------0--0---2--2--2-------2----|
|-2-------4---2-------4--4---4--4--4-------2----|
|-0----0------0-------5--5---0--0--0---0---0----|
|-----------------------------------------------|

Refrain
  A                  G     G/F#      G     A
|------------------------------------------------|
|------------------------------------------------|
|-14--14--14---------12----12---12---12----14----|
|-14--14--14---------12----12---12---12----14----|
|-12--12--12---------10-----9----9---10----12----|
|------------14-12-------------------------------|

Bass riff before the solo
||------------------------7-----7--||
||---------------------/5-----4----||
||-0-0-0-----0-0-------------------||
||-------0-2-----2-0---------------||

Solo
e|------------------------------------------0-0-0-0-0-0--0-0-0-0-0-0-------|
B|--------------------------------------3/5-5/7-7-7-7\5--5/7-7-7-7\5-------|
G|0h2--2/4--2/4--4-4\2-2---2/4-4-4\2-2-------------------------------------|
D--------------------------------------------------------------------------|
A|-------------------------------------------------------------------------|
E|-------------------------------------------------------------------------|

e|-----5-------------------------------------------------------------------|
B|--------------------/10------10-----10-----10------10-----10-12b14-------|
G|-2/4---4b6-2h4p2---------9h11---9h11---9h11---9h11---9h11----------------|
D|-------------------------------------------------------------------------|
A|-------------------------------------------------------------------------|
E|-------------------------------------------------------------------------|

e|-------------------------------------------------------------------------|
B|-----10-----10-----10-----10-----10-12b14-12b14-14b12p10---10-10---------|
G|-9h11---9h11---9h11---9h11---9h11------------------------11--------------|
D|-------------------------------------------------------------------------|
A|-------------------------------------------------------------------------|
E|-------------------------------------------------------------------------|

e|-------------------------------------------------------------------------|
B|-12b14-14-14-14b12p10----10-10---12b14-14-14-14b12p10---10-10------------|
G|----------------------11-----------------------------11------------------|
D|-------------------------------------------------------------------------|
A|-------------------------------------------------------------------------|
E|-------------------------------------------------------------------------|

e|-----17------17------17------17------17------17----20b22-22-22b20----17-17-|
B|17h20---17h20---17h20---17h20---17h20---20b22---17----------------20-------|
G|---------------------------------------------------------------------------|
D|---------------------------------------------------------------------------|
A|---------------------------------------------------------------------------|
E|---------------------------------------------------------------------------|

e|-----17------17------17------17------17------17----20b22-22-22b20----17-17-|
B|17h20---17h20---17h20---17h20---17h20---20b22---17----------------20-------|
G|---------------------------------------------------------------------------|
D|---------------------------------------------------------------------------|
A|---------------------------------------------------------------------------|
E|---------------------------------------------------------------------------|

e|-------------------------------------------------------------------------|
B|-20b22-20b22-20b22--19-19-17-17------------------------------------------|
G|-------------------------------------------------------------------------|
D|-------------------------------------------------------------------------|
A|-------------------------------------------------------------------------|
E|-------------------------------------------------------------------------|

Musik Gruppe