Alive

Printer Friendly, PDF & Email

Interpret

Pearl Jam

Akkorde

|---------||---------------------------|--------------------------||
|---------||---------------------------|--------------------------||
|-------0-||-2-------------------2-2-2-|-2----------------------0-||
|-----0---||-2----0h7h9---7vvvv--2-2-2-|-2----0h7h9--7-9b10r9-7-0-||
|-10\-----||-0-/7----------------0-0-0-|-0-/7---------------------||
|---------||---------------------------|--------------------------||
| F (G) | C |

Strope
||---------------------------|------------------------------||
||---------------------------|------------------------------||
||-2------2h4-2--------2-2-2-|-2-------2h4--2-4b5-4--2-4-2--||
||-2--0-2--------------2-2-2-|-2---0-2------------0---------||
||-0-------------------0-0-0-|-0----------------------------||
||---------------------------|------------------------------||
| F (G) | C |

Refrain

| E G | D A |
|----------------------------------|
|-12-12-12-12--12-12-12-12--12-12--|
|-11-11-11-11--11-11-11-11--11-11--|
|--9--9--9--9---9--9--9--9---9--9--|
|--9--9--9--9---9--9--9--9---9--9--|
|--------------11-11-11-11--11-11--|

Break
    H                              F#
|---------------------------------|------|
|-12-12-12-12--12-12-12-12--12-12-|-11---|
|-11-11-11-11--11-11-11-11--11-11-|-11---|
|--9--9--9--9---9--9--9--9---9--9-|-11---|
|--9--9--9--9---9--9--9--9---9--9-|--9---|
|--------------11-11-11-11--11-11-|--9---|

 A         A
--0--0-----0-----|--0--0----0----------|
--2--0-----3-----|--2--0----3----------|
--0--0-----2-----|--0--0----2-----4--2-|
--2--2-----0-----|--2--2----0----------|
--0--0-----------|--0--0---------------|
-----------------|---------------------|
 H        H
--2--2-----2-----|--2--2----2----------|
--4--2-----5-----|--4--2----5-----2----|
--2--2-----4-----|--2--2----4--------4-|
--4--4-----2-----|--4--4----2----------|
--2--2-----------|--2--2---------------|
-----------------|---------------------|

Solo
|-------------------------------------------------------|--------------------|
|-15b17r15-12-------------------------------------------|--------------------|
|-------------14b16r14-12-------12----12-12-14p12----12-|--------------------|
|-------------------------14-------14-------------14----|--------------------|
|-------------------------------------------------------|--------------------|
|-------------------------------------------------------|--------------------|

|----------------------------------------------|-----------------------------|
|-------------------------------------------12-|-----------------------------|
|-14b16--14b16--14b16r14-12-14-12vvvv-14b16----|-----------------------------|
|----------------------------------------------|-----------------------------|
|----------------------------------------------|-----------------------------|
|----------------------------------------------|-----------------------------|

|----------12----------12-------------------------------------------|--------|
|-------12----12-15b17----15p12----12-------------------------------|--------|
|-14b16-------------------------14----14b16r14p12-14-14-12-14-12vvv-|--------|
|-------------------------------------------------------------------|--------|
|-------------------------------------------------------------------|--------|
|-------------------------------------------------------------------|--------|

|-------------------------------------|--------17b19v-17b19r17-15-----------|
|---------------------------------0-0-|-17b19v--------------------17--------|
|---------------------------------0-0-|------------------------------14/16--|
|-14-12-------------------------------|-------------------------------------|
|-------14-13-12-10-12-10-12b14vv-----|-------------------------------------|
|-------------------------------------|-------------------------------------|

|-------------15-------------------------------|-----------------------|-----|
|-15-17----------17--------------------0-------|-----------------------|-----|
|-------16b18-------16\14p12-14-12vvv--0-2b4vvv|vvvvvvvv-----2b4r2--0--|-----|
|----------------------------------------------|-----------------------|-----|
|----------------------------------------------|-----------------------|-----|
|----------------------------------------------|-----------------------|-----|

|-------------0-3-0-3-5b7-r5-12-------|-----------------------------------|--|
|-----0-3-0-3-------------------15-12-|---------------------3-3---5-3---3-|--|
|-2b4---------------------------------|-2b4vvvvvvvv-2-0-2/4-----4-----4---|--|
|-------------------------------------|-----------------------------------|--|
|-------------------------------------|-----------------------------------|--|
|-------------------------------------|-----------------------------------|--|

|-----------3-5-5b7-r5p3-5-3----------|-2h3-2---2h3-2---2p0--------------|---|
|-5vvvvvv-5------------------5-----5/-|---------------------3---3---3-3--|---|
|-------------------------------------|----------------------------------|---|
|-------------------------------------|----------------------------------|---|
|-------------------------------------|----------------------------------|---|
|-------------------------------------|----------------------------------|---|

|---0-0-3-0-3-0--------------------------|-----------------------------------|
|-3-------------12----12-12--------------|-----------------------------------|
|---------------14b16-------14b16r14-----|-----------------------------------|
|----------------------------------------|-----------------------------------|
|----------------------------------------|-----------------------------------|
|----------------------------------------|-----------------------------------|

|-------12-12-12-------12---------15-15-------15-15--|-----------------------|
|-15b17----------15b17------18b20-------18b20--------|-----------------------|
|----------------------------------------------------|-----------------------|
|----------------------------------------------------|-----------------------|
|----------------------------------------------------|-----------------------|
|----------------------------------------------------|-----------------------|

|-14-------14-14----14-14-14-12-------12-12-------12-12-12-|-----------------|
|----17b19-------17-------------15b17-------15b17----------|-----------------|
|----------------------------------------------------------|-----------------|
|----------------------------------------------------------|-----------------|
|----------------------------------------------------------|-----------------|
|----------------------------------------------------------|-----------------|

|-------------12-12-------12-12-12---------15-15-------15-15--|--------------|
|-15p12-15b17-------15b17------------18b20-------18b20--------|--------------|
|-------------------------------------------------------------|--------------|
|-------------------------------------------------------------|--------------|
|-------------------------------------------------------------|--------------|
|-------------------------------------------------------------|--------------|

|-12-15p12----12-15-12-15b17-15vv\----------|--------------------------------|
|----------15-------------------------------|--------------------------------|
|----------------------------------7/12\-/--|--------------------------------|
|-------------------------------------------|--------------------------------|
|-------------------------------------------|--------------------------------|
|-------------------------------------------|--------------------------------|

|-15b17--15--12-15-12-12-------12--------------------------|-----------------|
|------------------------15b17----15p12-------12-----------|-----------------|
|---------------------------------------14b16----14b16-----|-----------------|
|----------------------------------------------------------|-----------------|
|----------------------------------------------------------|-----------------|
|----------------------------------------------------------|-----------------|

|----------------------------------------------|-----------------------------|
|-------------------------------12vvv-12-12-12-|-----------------------------|
|-14b16r14-12----12-14-12-14-14-12vvv-12-12-12-|-----------------------------|
|-------------14-------------------------------|-----------------------------|
|----------------------------------------------|-----------------------------|
|----------------------------------------------|-----------------------------|

|-------12-----------12-----------12-----------12-----------12-----------|---|
|---------15p12--------15p12--------15p12--------15p12--------15p12------|---|
|-14b16--------14b16--------14b16--------14b16--------14b16--------14b16-|---|
|------------------------------------------------------------------------|---|
|------------------------------------------------------------------------|---|
|------------------------------------------------------------------------|---|

|-12-----------12-----------12---------------------|-------------------------|
|---15p12--------15p12---------15p12---------12----|-------------------------|
|--------14b16--------14b16------------------12----|-------------------------|
|-----------------------------------------------14-|-------------------------|
|--------------------------------------------------|-------------------------|
|------------------------------------15\-----------|-------------------------|

|----------------------------------------|-----------------------------------|
|-14-12vvv------------14-12vvv-----------|-----------------------------------|
|-14-12vvv--14-12-----14-12vvv--14-12----|-----------------------------------|
|-----------------14------------------14-|-----------------------------------|
|----------------------------------------|-----------------------------------|
|----------------------------------------|-----------------------------------|

|-------------------------12-12-------12-12-------15-|-----------------------|
|-------12----12-------12-12-12-------12-12----------|-----------------------|
|-14vvv-12----12-14b16----------14b16-------14b16----|-----------------------|
|----------14----------------------------------------|-----------------------|
|----------------------------------------------------|-----------------------|
|----------------------------------------------------|-----------------------|

|-------15-------15-------15-------15-------15----|--------------------------|
|-15----15-15----15-15----15-15----15-15-------15-|--------------------------|
|-14b16----14b16----14b16----14b16----14b16----16-|--------------------------|
|-------------------------------------------------|--------------------------|
|-------------------------------------------------|--------------------------|
|-------------------------------------------------|--------------------------|
                                  hold bend--|


|--------------------------------------0---0-0-|-------------------------------|
|-15-----------------------------------3/5-5-5-|-------------------------------|
|-16r14-12----12-14-14-14---14-14-14-----------|-------------------------------|
|----------14----------------------------------|-------------------------------|
|----------------------------------------------|-------------------------------|
|----------------------------------------------|-------------------------------|


|-0------0--0--3--0--0--0--5--0--0--0--3--0--0--0--|-------------------------|
|-3-/-5--5--5--5--5--5--5--5--5--5--5--5--5--5--5--|-------------------------|
|--------------------------------------------------|-------------------------|
|--------------------------------------------------|-------------------------|
|--------------------------------------------------|-------------------------|
|--------------------------------------------------|-------------------------|


|-0------0--0--3--0--0--0--15b17-12-12-------12-------12-12-|----------------|
|-3-/-5--5--5--5--5--5--5--------------15b17----15b17-------|----------------|
|-----------------------------------------------------------|----------------|
|-----------------------------------------------------------|----------------|
|-----------------------------------------------------------|----------------|
|-----------------------------------------------------------|----------------|

|-15b17-12-12-------12-12-------12-12-------12-12--15p12-15-15-|-------------|
|-------------15b17-------15b17-------15b17--------------------|-------------|
|--------------------------------------------------------------|-------------|
|--------------------------------------------------------------|-------------|
|--------------------------------------------------------------|-------------|
|--------------------------------------------------------------|-------------|

|-17b19--17--15-17-15b16--------------------|--------------------------------|
|-------------------------17-15----15-17p15-|--------------------------------|
|-------------------------------16----------|--------------------------------|
|-------------------------------------------|--------------------------------|
|-------------------------------------------|--------------------------------|
|-------------------------------------------|--------------------------------|


|-17b19--17--15-17-15b16-------------------|---------------------------------|
|-------------------------17-15----15------|---------------------------------|
|-------------------------------16----16\--|---------------------------------|
|------------------------------------------|---------------------------------|
|------------------------------------------|---------------------------------|
|------------------------------------------|---------------------------------|

|----------------------12--------------------------------|-------------------|
|-------------------12----12-15b17vvvv-15b17-15b17r15p12-|-------------------|
|-14-12----12-14b16--------------------------------------|-------------------|
|-------14-----------------------------------------------|-------------------|
|--------------------------------------------------------|-------------------|
|--------------------------------------------------------|-------------------|

|-------12-----------12-15p12------12-----------12-----------12--------|-----|
|---------15p12----------------------15p12--------15p12--------15p12---|-----|
|-14b16--------14b16---------14b16--------14b16--------14b16--------14-|-----|
|----------------------------------------------------------------------|-----|
|----------------------------------------------------------------------|-----|
|----------------------------------------------------------------------|-----|

|-----------------------------------------------|----------------------------|
|-------12-12-12-------12-----------------------|----------------------------|
|-14b16----------14b16----15-14-12---12vvvv-----|----------------------------|
|---------------------------------14------------|----------------------------|
|-----------------------------------------------|----------------------------|
|-----------------------------------------------|----------------------------|

|------------------------------------|--------------------------x-x-|--------|
|-12----12--------14-----15----------|-17------17-----17------------|--------|
|-14b16-14b16vvvv-16b18--17b19vvvvvv-|-19b21---19b21--19b21vvv------|--------|
|------------------------------------|------------------------------|--------|
|------------------------------------|------------------------------|--------|
|------------------------------------|------------------------------|--------|

|-12-------14----15-------15-------|-17-------------------------------------|
|-15b17vvv-17b19-18b20vvv-18b20vvv-|-20b22vvvv-20b22-20b24-20b22r20-17h20---|
|----------------------------------|----------------------------------------|
|----------------------------------|----------------------------------------|
|----------------------------------|----------------------------------------|
|----------------------------------|----------------------------------------|

|--------------------------------|--------||---------------------------------|
|-p17vvvvvv-\--------------------|--------||---------------------------------|
|--------------------------------|--------||---------------------------------|
|--------------------------------|--------||---------------------------------|
|--------------------------------|--------||---------------------------------|
|--------------------------------|--------||---------------------------------|

Musik Gruppe