Solsbury Hill - Peter Gabriel

Printer Friendly, PDF & Email

Akkorde

Intro
           A  Dadd9          A     Dadd9 A  Amaj9
-------||---------------------------------------------||
-----0-||--2-h3----------3---2-------3---2----------0-||
--1-2--||----------2-----------2-----2---2---1---1-2--||
-------||--2-h4------4-----------2---4---2---2--------||
-------||--------------0-----2-------0---0------------||
-------||---------------------------------------------||


Strophe
     A    Amaj9  A Asus2   F#m    E7    F#m
||---------------------||---2------0----2-2----||
||---2-----------2-0---||---2------0----2-2----||
||---2------1----2-2---||---2------1----2-2----||
||---2------2----2-2---||---4------0----4-4----||
||---------(2)---------||---4------2----4-4----||
||---------------------||---2------0----2-2----||


  Dmaj7   E7/D  Dmaj7     H9     E7   H9
||---2------- --2-2---||---2------- --2-2---|
||---2-----0----2-2---||---2-----0----2-2---|
||---2-----1----2-2---||---2-----1----2-2---|
||---4-----2----4-4---||---4-----0----4-4---|
||---5-----0----5-5---||---2-----2----2-2---|
||--------------------||--------------------|

   H9    A/C#   Dmaj7 E   D/F#  E   
|---2-----2------2----0----x----0---|
|---2-----2------2----0----3----0---|
|---2-----2------2----1----2----4---|
|---4-----2------4----2----0----2---|
|---2-----4------5----2----x----2---|
|----------------x----0----2----4---|

Musik Gruppe