Rock You Like A Hurricane

Printer Friendly, PDF & Email

Interpret

Scorpions

Akkorde

Intro und Refrain
  E5      G5    A5  C5 D5   
e----------------------------|
B----------------------------|
G-9-9-9--------------5--7-7--|
D-9-9-9---5-5---7-7--5--7-7--|
A-7-7-7---5-5---7-7--3--5-5--|
E---------3-3---5-5----------|

Strophe
|--------------------------------------------------------------------|
|--------------------------------------------------------------------|
|--------------------------------------------------------------------|
|-5-5-5-9-9-9-9-9--5-5-5-9-9-7-7-7--5-5-5-9-9-9-9-9--5-5-5-7-7-7-7-7-|
|-3-3-3-7-7-7-7-7--3-3-3-7-7-5-5-5--3-3-3-7-7-7-7-7--3-3-3-5-5-5-5-5-|
|--------------------------------------------------------------------|
  * * * * * * * *  * * * * * * * *  * * * * * * * *  * * * * * * * *

Strophe Variante
|---------------------------------------------|
|---------------------------------------------|
|--------9/---------9-7---------9/---------7--|
|--------9/---------9-7---------9/---------7--|
|-XX[3]~-7/--XX[3]~-7-5--XX[3]~-7/--XX[3]~-5--|
|---------------------------------------------|


Intro Solo
|----------/15-14h15p14\12-------15----17b19r17p15-17-|
|----15--------------------15-15b--15b----------------|
|-14b--14b--------------------------------------------|
|-----------------------------------------------------|
|-----------------------------------------------------|
|-----------------------------------------------------|

|-22b24-22b24-22b24-22b24r22-19-22-20-19----20-19-------19h20p19----------22\-|
|----------------------------------------22-------22-20----------22p20p19-----|
|-----------------------------------------------------------------------------|
|-----------------------------------------------------------------------------|
|-----------------------------------------------------------------------------|
|-----------------------------------------------------------------------------|

|----12---12---12---12---12---12---12--17-12--------------------------------|
|-15b--15b--15b--15b--15b--15b--15b---------15-12---------------------------|
|------------------------------------------------15-14-12-------------------|
|--------------------------------------------------------14-12--------------|
|-------------------------------------------------------------14-13-12------|
|----------------------------------------------------------------------15\\-|

#################### Main Solo ########################

||------------------TAP--||-----|
||-12h15p12h15p12--17/---||-----|
||-----------------------||-----|
||-----------------------||-----|
||-----------------------||-----|
||-----------------------||-21//|

|-------------------------------------------------------------15-15-|
|------------------------------12--12-------------15-15-17-17-------|
|------------------12-12-14-14--------14-14-16-16-------------------|
|------12-12-14-14--------------------------------------------------|
|-14-14-------------------------------------------------------------|
|-------------------------------------------------------------------|

|----------------12---------------------------||------------------------||
|-15b16r15b17r15---15-12----------------------||-14b15==(14)r(14)-12----||
|------------------------14b15r14b16r14p12----||-14b15==(14)r(14)-12----||
|------------------------------------------14-||---------------------14-||
|---------------------------------------------||------------------------||
|---------------------------------------------||------------------------||


|---------------------------------------------------------------|
|----------------5p3--8p5--10p8---15p12---17p15---20p17---22p20-|
|-0-1-2-3-[4]~-\4---\7---\9----\14-----\16-----\19-----\21------|
|---------------------------------------------------------------|
|---------------------------------------------------------------|
|---------------------------------------------------------------|

--> Intro Solo
--> Schluss
|------------------------|
|---------------------7b-|
|-2h3p2p0-0-2-3-4-[5]-7b-| *Again another slow bend and thats it!
|--------2---------------|
|------------------------|
|------------------------|

Musik Gruppe