Jump

Printer Friendly, PDF & Email

Interpret

Van Halen

Akkorde

|| C | C F G ||

e||-------------------|---------------------|----------------------|----------------------||
B||o----15-----17-----|-13-----13---15---15-|-(15)--17-----13---10-|-(10)--8---8--(8)----o||
G||-----16-----17-----|-14-----14---16---16-|-(16)--17-----14---10-|-(10)--9---7--(7)-----||
D||-----17-----17-----|-15-----15---17---17-|-(17)--17-----15---10-|-(10)-10--10-(10)-----||
A||o------------------|---------------------|----------------------|---------------------o||
E||-------------------|---------------------|----------------------|----------------------||

Bridge

| Am | Am |
|| F C/
E Dm | Dm ||
2x
| F C/E G | G |

E||------------------------||------------------------|
B||------------------------||-----------------8/10-8-|
G||-----5--------5--7/8--7-||-----5--------5---------|
D||---7--------5-----------||---7--------5-----------|
A||-8------8-7-------------||-8------8-7-------------|
E||------------------------||------------------------|

Guitar Solo
|| Bm G | Ab Db ||

Keyboard Solo

| C | % | % | % |
| F | % | G | % |
| A# | % | A | % |
| G# | % | G | % | -> C

​e-----18vvvvv\---6--------6----------6-------------------------------|
b----x----------x---9bvv----6--9p6--------------6--------------------|
g---x------------------------------9----9p8p6-8---6vvv/-------6---6--|
d------------------------------------------------------------x-------|
a-----------------------------------------------------------x--------|
e--------------------------------------------------------------------|
  
e----------------------------------------------h6h9-13p9p8p6h9h13p9p8|
b---6b--6b-----------------------------------------------------------|
g--------------------------------------------------------------------|
d------------8-----6br-8p6---6---------------------------------------|
a--------------8-----------8---8-7-6\4-6-4vvv------------------------|
e--------------------------------------------------------------------|
  
e-p6h9-13p9p8p6--------------------------------------------------------|
b--------------h9h13-6-------------------------------------------------|
g---------------------h9--13p6h10-----------------------------8b9r8rp6-|
d---------------------------------13p6h10------------------------------|
a-----------------------------------------13p6vv(6)b8vr6\-/8-----------|
e----------------------------------------------------------------------|
 
e--------------6--8--11-11h13v--9h11vvv/-----------------------------|
b-------------6------------------------------------------------------|
g-8vvvvv\----6-------------------------------------------------------|
d-----------8--------------------------------------15h16h18----------|
a-----------------------------------------15h16h18----------15h16h18-|
e--------------------------------------------------------------------|
  
e-----------------------------15h16p15vvvvvvvvvvv--|
b--------------------15h16h18----------------------|
g-----------15h16h18-------------------------------|
d--15h16h18----------------------------------------|
a--------------------------------------------------|
e--------------------------------------------------|

Musik Gruppe