I Still Haven't Found What I'm Looking For

Printer Friendly, PDF & Email

Interpret

U2

Akkorde

Gitarre 2 + Power Chords
D#|----------------------------------------------------|
A#|----------------------------------------------------|
F#|--7M----7g-7M----7g-7M----7M----7g-7M----7g-7M------|
C#|----------------------------------------------------|
G#|----------------------------------------------------|
D#|----------------------------------------------------|


​During the verses play this:
   D
||----------------------------9--------||
||-----10----10--10------10----10--10--||
||---7---7-7---7-------7---7-----7-----|| 2X
||-0-----------------0-----------------||
||-------------------------------------||
||-------------------------------------||

  G
|-----------------------------7------|
|-----8-----8---8-------8------8--8--|
|---7---7-7---7-------7---7-----7----|
|-0-----------------0----------------|
|------------------------------------|
|------------------------------------|
Only to be with you

  D
||----------------------------9--------||
||-----10----10--10------10----10--10--||
||---7---7-7---7-------7---7-----7-----|| 
||-0-----------------0-----------------||
||-------------------------------------||
||-------------------------------------||

Refrain
  A                 Gsus2             D
|----------------------------------||----------------------------9--------||
|-----10----10--10------8-----8--8-||-----10----10--10------10----10--10--||
|---9---9-9---9-------7---7-7--7---||---7---7-7---7-------7---7-----7-----|| 
|-7-----------------5--------------||-0-----------------0-----------------||
|----------------------------------||-------------------------------------||
|----------------------------------||-------------------------------------||


Alternativ die ersten beiden Akkorde
----------------------------|----------------------------|
-----7--------7-----7-------|--8--------10----8-----7L---|
-----7-----------------7----|--7-------------------------|
--------0-------------------|-----0----------------------|
----------------------------|----------------------------|
----------------------------|----------------------------|

Musik Gruppe