Hounds on the Scent

Interpret

Easy Living

Akkorde

Intro & Strophe

 Am                Am                 Am               | 1. Am
||-----------------|-----------------|-----------------|----------------||
||-----------------|-----------------|-----------------|----------------||
||-----------------|-----------------|-----------------|----------------||
||-----------------|-----------------|-----------------|----------------||
||-0-0-7-0-0-3-0-0-|-5-0-0-2---3-2-3-|-0-0-7-0-0-3-0-0-|-5-0-0-2--------||
||-----------------|-----------------|-----------------|----------3-2-0-||

| 2. D
|----------------|
|----------------|
|-7--------------|
|-7--------------|
|-5--------------|
|----------------|

Pre Chorus
| F | C | Am | Em | F | G7 |

Chorus
|| Am7 G7 | D  (3+) Am Am G || 3x
| Am7 G7 | C C 
(2+) D |

 

Solo 1

|| Am | Am | D | Em ||

Solo 2 über Pre Chorus

Bridge

|| Am | H | C | D ||

 

Ablauf

  • Intro
  • Strophe 1
  • Pre Chorus
  • Strophe 2
  • Pre Chorus
  • Chorus
  • Strophe 3
  • Pre Chorus
  • Chorus
  • Solo 1
  • Solo 2
  • Bridge
  • Chorus 2x

Musik Gruppe