Gimme Gimme Gimme - ABBA

DruckversionDruckversion

Akkorde: 

|---------8----8--------|---------8----8----------------|
|-------8--------8------|-------8--------8--------------|
|-----8------------8----|-----8------------8-------8-10-|
|--10----------------10-|--10----------------10-12------|
|-----------------------|-------------------------------|
|-----------------------|-------------------------------|

-----------11----11----------|---------8----8--------||
--------11----------11-------|-------8--------8------||
-----12----------------12----|-----8------------8----||
--13----------------------13-|--10----------------10-||
-----------------------------|-----------------------||
-----------------------------|-----------------------||

Intro :

| Cm | D# | G | Cm |
| Cm B G Cm |

Strophe

|| Fm | % | % | % |
| Cm | Cm B G C ||

Bridge

| G# | F | G | G |

Refrain

| Cm | G# | B | Cm |
| G# | Cm | B | Cm |

Musik Gruppe: